Jump to content
Sign in to follow this  
Pecan_Pie

Muzzle of Bees Current Tour

Recommended Posts

Capo 7

 

Some fine fingerpicking... i'll update this as i work my way through it.

 

Intro

 

A....D....A.....D

 

A

There

Edited by Pecan_Pie

Share this post


Link to post
Share on other sites

I think its done.... please feel free to suggest, improve, or help this tab along its way to being done.

 

 

Any help you have would be very.... uhh... helpful.

Share this post


Link to post
Share on other sites
Guest Mike7300
I think its done.... please feel free to suggest, improve, or help this tab along its way to being done.

Any help you have would be very.... uhh... helpful.

 

Can somebody provide the tab?

Share this post


Link to post
Share on other sites
Guest gryfyrg

This is gonna come in bits and pieces; I guess at some point it will become a full tab. I'm using the NPR live-in-studio version thats available from a link at wilcoworld.net.

 

The chords for the instrumental break are Em - G - D - A (with a capo on 7, they're Am - C - G - D)

 

These parts here are what I think Nels plays, although some may be Jeff's or Pat's. I'm gonna try to find a better version to use for the rhythm parts.

 

() = string played while being bent or tremeloed, producing note in parentheses

v = tremelo bar dip

/// = tremelo picking

\ across the staff = tremelo dive

 

"Silently, and back to me"

|----------------------------------------------------|

|----------------------------------------------------|

|------------------6---7---6---------------7---6---|

|-------------9-----------------9----------7---7---|

|--------9-----------------------------5--------7---|

|---7------------------------------------------------|

 

Following "On your machine" and "You know what that means"

 

|-------------------------------------------------------------------|

|---9--------------------------------9-----------------------------|

|---------9----11---8---9----------------9----11---8---9--------|

|-----------------------------11------------------------------11---|

|-------------------------------------------------------------------|

|-------------------------------------------------------------------|

 

First instrumental break

 

|-------------------------------------------------------------------------|

|---------8-----10p7---8----------10p7---8---------10p7---8---------|

|--/9------------9-------------9-----9------------9----9------------9---|

|--------------------------------------------------------------------------|

|--------------------------------------------------------------------------|

|--------------------------------------------------------------------------|

 

|-------------------------------------------------------------------------------------|

|-----------------10-------------------------------10-------10/11---12---9--------|

|---10b11-------------(11)---------10b11------(11)---------------------9--------|

|-------------------------------------------------------------------------------------|

|-------------------------------------------------------------------------------------|

|-------------------------------------------------------------------------------------|

 

|------------------------------------------------------------------------------------------|

|---------8-----10p8--------8------------10p8--------8------------10p8-------8-------|

|--/9--------9-----------9------------9------------9------------9------------9-----------|

|------------------------------------------------------------------------------------------|

|------------------------------------------------------------------------------------------|

|------------------------------------------------------------------------------------------|

 

|----------------------------------------------------------------------------------------|

|----------------10------------------------------10------12/14---14---9--------------|

|---10b11-------------(11)--------10b11-----(11)---------------------9-------------|

|--------------------------------------------------------------------------9-------------|

|----------------------------------------------------------------------------------------|

|----------------------------------------------------------------------------------------|

 

Repeat the following for a while

 

|-------------------------------------------------------------------------------------|

|-------------------------------------------------------------------------------------|

|---9---11p9---9------9---11p9---9------9---11p9---9------9---11p9---9------|

|-------------------------------------------------------------------------------------|

|-------------------------------------------------------------------------------------|

|-------------------------------------------------------------------------------------|

 

Second instrumental break

 

|---------------------------------------------------------------------------------------------|

|---------8-----10p8--------8------------10p8--------8------------10p8-------8---------|

|--/9--------9----------9------------9------------9------------9------------9---------9---|

|---------------------------------------------------------------------------------------------|

|---------------------------------------------------------------------------------------------|

|---------------------------------------------------------------------------------------------|

 

|--------------------------------------------------------------------------------------------|

|--------------------------------------------------------------------------------------------|

|-------------7--------9p7--------7----------9p7--------7----------9p7--------7----------|

|---7h9-----------9----------9-----------9----------9----------9-----------9----------9---|

|---------------------------------------------------------------------------------------------|

|---------------------------------------------------------------------------------------------|

 

|-------------------------------------------------------------------------------------------|

|-------------------------------------------------------------------------------------------|

|----------------6----------------6/14-------14-14-14-14-14-14-14-14-14-14-14-14-|

|---9b10----------------------------------------------------------------------------------|

|-------------------------------------------------------------------------------------------|

|-------------------------------------------------------------------------------------------|

 

|---------------------------------------------------------------------------------------------|

|---------------------------------------------------------------------------------------------|

|-14-14-14-14-14-14-14-14-14-14-14-14-14-/16-16-16-16-16-16-16-16-16-16-16-|

|---------------------------------------------------------------------------------------------|

|---------------------------------------------------------------------------------------------|

|---------------------------------------------------------------------------------------------|

 

|--------------------------------------------------------------------------------------------|

|--------------------------------------------------------------------------------------------|

|-19-19-19-19-19-19-19-18-19-18-19-18-19-19-19-19-18-19-18-19-18-19-19-19-|

|--------------------------------------------------------------------------------------------|

|--------------------------------------------------------------------------------------------|

|--------------------------------------------------------------------------------------------|

 

|--------------------------------------------------------------------------------------------|

|-------17---19---19-----------19---17---------------------------------------------------|

|-19-------------------------------------------18\14------14-(13)-(14)-(13)-(14)-(13)-|

|-------------------------------------------------------------vvvvvvvvvvvvvvvvvv------|

|--------------------------------------------------------------------------------------------|

|--------------------------------------------------------------------------------------------|

 

|---------------------------------------------------------------------------------------------|

|----------------------------------------------------------------15--14---------------------|

|------------------------------------------------------14--16------------16--14--16--14--|

|-------------------------11-----------------14--16-----------------------------------------|

|---11-12-11-12-11--12---12---12/16--------------------------------------------------|

|----vvvvvvvvvvvv-----------------------------------------------------------------------|

 

|---------------------------------------------------------------------------------------------|

|---------------------------------------------------------------------------------------------|

|---12---------------------------------------------------------------------------------------|

|--------------15b17----(17)---------------------------------------------------------------|

|----------------------------------------16---16---16---16---16---16---16---16---16----|

|-----------------------------------------vvvvvvvvvvvvvvvvvvvvvvvvvvvvvvvvvvv---|

 

|---------------------------------------------------------------------------------------|

|---------------------------------------------------------------------------------------|

|-------------------------------------------------14----------14--16---14--16p14---|

|-------14--16--17--16--14---16/17--14/16------14/16----------------------------|

|--17-----------------------------------------------------------------------------------|

|----------------------------------------------------------------------------------------|

 

|---------------------------------------------------------------------------------------------|

|-----------------------------------15-----15-----15-----15-----15-----15-----15--------|

|-------/16--14----14-14-14-14-----14-----14-----14-----14-----14-----14-----14----|

|--16----------------------------------------------------------------------------------------|

|---------------------------------------------------------------------------------------------|

|---------------------------------------------------------------------------------------------|

 

|-------------------------------------------------------------------------------------------|

|--15/------22-22-22-22-22-22-22-22-22-22-22-22-22\----------17--14-------14--|

|--14/-----------------------------------------------------\----------------------16------|

|--///-------------------------------------------------------\------------------------------|

|-------------------------------------------------------------\-----------------------------|

|--------------------------------------------------------------\----------------------------|

 

|-----------------------------------------------------------------------------------------|

|--14------------------------------------------------14---0-----/(18)-(18)-(19)-(19)-|

|-------16---13------------------14--16--14--16--------0-----vvvvvvvvvvvvvvvv-|

|-------------vvvvvvvvvvvvvv--------------------------0-----------------------------|

|-----------------------------------------------------------\-----------------------------|

|------------------------------------------------------------\----------------------------|

 

|----------------------------------------------------------------21----------------21\-----|

|-(19)-(19)-(19)-20-20-(19)-20-(19)-20-(19)-20-(19)-----vvvvvvvvvv------\-------|

|-vvvvvvvvvvvvvvvvvvvvvvvvvvvvvvvvvvvvvvvvvv--------------------------\------|

|---------------------------------------------------------------------------------------\-----|

|----------------------------------------------------------------------------------------\----|

|-----------------------------------------------------------------------------------------\---|

 

this part is a total guess

|-----------------14------------------------------------------------------------------|

|-------14--15-----------------------------------------------------------------------|

|--16-----------------16p14-16p14-------14---------------------------------------|

|---------------------------------------16-------16\14--14\12--11--12------------|

|----------------------------------------------------------------------------14--12--|

|--------------------------------------------------------------------------------------|

 

|-------------------|

|-------------------|

|-------------------|

|-------------------|

|--10\9--7--5--7--|

|--------------------| lol and I have no idea what he's playing...

 

|--------------------------------------------------------------|

|---------------------------------2/14------------------------|

|---2-----------------------------2/14-----------------------|

|---2-----------------------------2/14-----------------------|

|---0---------------------------------------------------------|

|--------------------------------------------------------------|

 

This last part is played with a slide

Edited by gryfyrg

Share this post


Link to post
Share on other sites

now that is the shit

i have been waiting for so long to see a tab for their instrumental parts

THANK U SOOOO MUCH

Share this post


Link to post
Share on other sites
Guest gryfyrg

no problem, i just gotta get on those elusive rhythm parts, i dont know how many shredding / avant garde people are here that are actualy interested in a nels cline tab... :-)

Edited by gryfyrg

Share this post


Link to post
Share on other sites

There are as many here as u want to be , just keep em comin!

 

 

Oh btw i think in the jammin instrumental part where the chords are Am C G D

HE does this thing where he hamers on the 3 fret of the b string (Gb if the capos on 7 and ur gettin technical)

here goes

CAPO ON 7

 

e-0-0-0-0-0-0-00

b-1-1-3p1p0h1

g-2-2-2-2-2-2

d-2-2-2-2-2-2

a-0-0-0-0-0-0

E-x-x-x-x-x-x

 

then do the same little thing with the C chord

ps. sorry if the tab looks crummy.

:rock

Edited by zkits

Share this post


Link to post
Share on other sites

Hi Pecan Pie its theo-logians anwser my question at just a fan.

Capo 7

 

Some fine fingerpicking... i'll update this as i work my way through it.

 

Intro

 

A....D....A.....D

 

A

There

Share this post


Link to post
Share on other sites

Join the conversation

You can post now and register later. If you have an account, sign in now to post with your account.

Guest
Reply to this topic...

×   Pasted as rich text.   Paste as plain text instead

  Only 75 emoji are allowed.

×   Your link has been automatically embedded.   Display as a link instead

×   Your previous content has been restored.   Clear editor

×   You cannot paste images directly. Upload or insert images from URL.

Loading...
Sign in to follow this  

×
×
  • Create New...