Jump to content
Sign in to follow this  
Adam2

Far, Far Away solo

Recommended Posts

Here's my first "official" tab, of the Far, Far Away solo from Being There. It's probably not 100% accurate, but I tried my best. Hopefully I will start tabbing other songs/solos on this board...

 

 

e----------------2-------------------2--------------------------------|

B----------------3-------------------3-------3-----3-----------------|

G----------------3h4----------------3h4----3h4---0h2--------------|

D----------------------4-----------------------------------0----------|

A--0h2---0--2-------------5---2------------------------------2------|

E-----------------------------------------------------------------------|

 

 

e-----------------------------------------------------------------8----8---8-----------|

B------------------------------------/8--10--12--8-----------/9-----10--10----------|

G------------------------------------/7--9---11--7------------------------------------|

D--0---------------------------------------------------7--5----------------------------|

A-----2--1--0-----0---0h2-------------------------------------------------------------|

E-----------------------------3----------------------------------------------------------|

 

e----------------------------------8-----------------------|

B------/8--10--12--8----------/9-----12--10--8---------|

G------/7--9---11--7--------------------------------------|

D------------------------7--5------------------------------|

A-----------------------------------------------------------|

E-----------------------------------------------------------|

Edited by Adam2

Share this post


Link to post
Share on other sites
Guest HtotheOV

Very nice tab. Its a tab I've been looking for some time. Its well appreciated. Thanks.

Share this post


Link to post
Share on other sites

Join the conversation

You can post now and register later. If you have an account, sign in now to post with your account.

Guest
Reply to this topic...

×   Pasted as rich text.   Paste as plain text instead

  Only 75 emoji are allowed.

×   Your link has been automatically embedded.   Display as a link instead

×   Your previous content has been restored.   Clear editor

×   You cannot paste images directly. Upload or insert images from URL.

Loading...
Sign in to follow this  

×
×
  • Create New...