Jump to content

More like the moon tab?


Recommended Posts

Does anyone know where I can find the More Like the Moon tab? With the solo? I saw it somewhere. Now I have a headache.

 

yeah, i have the fingerpicked (travis-picking?) chords for the verse, the little bridge riff, and like half the solo tabbed out. email me (lobster_lobotomy@hotmail.com) if you want it.

Link to post
Share on other sites
yeah, i have the fingerpicked (travis-picking?) chords for the verse, the little bridge riff, and like half the solo tabbed out. email me (lobster_lobotomy@hotmail.com) if you want it.

 

Do you think you can just post it here? I'd love to see it too....

Link to post
Share on other sites
  • 2 months later...
  • 3 weeks later...

a HUGE THANKS to "worsethanaclarinet".

 

Wilco - More Like the Moon (EP Version)

 

Key of D# major (Capo I) - chords and notes relative to capo

 

 

VERSE:

 

D pattern (repeat 4x) G pattern (repeat 5x) A pattern (1x)

 

E---------2-----2---| |---------3-----3---| |---------5-----5---|

B-----3-----3-------| |-----3-----3-------| |-----2-----2-------|

G-------2-----2-----| : |-------0-----0-----| : |-------2-----------|

D---0---------------| 4x |-------------------| 5x |-------------2-----|

A-------------------| : |-------------------| : |---0---------------|

E-------------------| |---3---------------| |-------------------|

 

I see you in the morning.. ....only one...

 

 

|D pattern (4x) | G pattern (5x) | G pattern (1x)

| A pattern (1x) |

 

| ..shoe. | I say I see you lost something | what are you gonna

do?| |

 

 

|D pattern (4x) | G pattern (5x) | G pattern (1x)

| A pattern (1x) |

 

| | You say 'but no, i found one'.. | there's another out

there| for you |

 

 

BRIDGE/CHORUS:

 

E---2-2--2-2-0-----0---0-0-0---|

B---3-3--3-3-2-3---2-3-2-0-2---|

G------2-------4-----4---------| D pattern (4x)

D------------------------------|

A------------------------------|

E------------------------------|

 

 

SOLO:

 

E---5-5-5/7-----------------------------------------------------------------|

B-------------------------------7--7^8^10----------7---------------------7--|

G-----------9-9-9/7-------6^7^9-----------6--6^7^9-----6^7^9^7^6---6^7^9----|

D---------------------9------------------------------------------9----------|

A---------------------------------------------------------------------------|

E---------------------------------------------------------------------------|

 

E-----------------------------------------------------------------------------------------------|

B---10^8^7-----7-10-10/12-12-12/14-14-14-14/15-15-15-15-------------7^8^7-------7-7-------7-----|

G----------6-9------------------------------------------11-11-11-11-------6^7^9-----6^7^9---7---|

D-----------------------------------------------------------------------------------------------|

A-----------------------------------------------------------------------------------------------|

E-----------------------------------------------------------------------------------------------|

 

E--------------------------------------------------------------------------|

B-------------7^8^10^8^7-7^8^10-10-10/12-------------------------------7---|

G---6---6^7^9----------------------------9-9-9/7---6^7^9^7^6-----6^7^9-----|

D-----9------------------------------------------9-------------9-----------|

A--------------------------------------------------------------------------|

E--------------------------------------------------------------------------|

 

E------------------------------------------------------------------------------------------------------------|

B-----------------------7---7---7---7---------------------------------------------8^10^12^10^8---------------|

G---9-9-9-9^7^6---6^7^9---9---9---9---9-9/11-11-11-11/12-12-12-12-12/10/11-11-11---------------10/11-11-11---|

D---------------9--------------------------------------------------------------------------------------------|

A------------------------------------------------------------------------------------------------------------|

E------------------------------------------------------------------------------------------------------------|

 

[That's all I have for the solo tabbed out.. just improvise the rest. He's

mostly using the D major / C minor (D# / C# with capo) natural scales here.]

 

For the second verse, its the same chords and pattern as the first, just

watch his timing.

The BRIDGE/CHORUS on the second time has the "why don't you come to me now,

know who you are" singing part over it.

 

the D and G repeat with a second guitar underneath the solo, i believe. good

luck.

 

a HUGE THANKS to "worsethanaclarinet".

Link to post
Share on other sites
  • 1 month later...
D pattern (repeat 4x) G pattern (repeat 5x) A pattern (1x)

 

E---------2-----2---| |---------3-----3---| |---------5-----5---|

B-----3-----3-------| |-----3-----3-------| |-----2-----2-------|

G-------2-----2-----| : |-------0-----0-----| : |-------2-----------|

D---0---------------| 4x |-------------------| 5x |-------------2-----|

A-------------------| : |-------------------| : |---0---------------|

E-------------------| |---3---------------| |-------------------|

 

It seems like when he repeats these patterns, they don't get repeated exactly. Anyone have any thoughts on this?

Link to post
Share on other sites

Join the conversation

You can post now and register later. If you have an account, sign in now to post with your account.

Guest
Reply to this topic...

×   Pasted as rich text.   Paste as plain text instead

  Only 75 emoji are allowed.

×   Your link has been automatically embedded.   Display as a link instead

×   Your previous content has been restored.   Clear editor

×   You cannot paste images directly. Upload or insert images from URL.

Loading...
×
×
  • Create New...