Jump to content
Sign in to follow this  
petemoss

Monday

Recommended Posts

Intro riff

e-----------------------
B--5h6--5---3-3---3-5-3-
G--5----5---4-4---4-4-4-
D--5h7--5---5-5---5-5-5-
A-----------------------
E-----------------------

Share this post


Link to post
Share on other sites

This solo has always looked easy to play to me, but has always sounded great. It looks easy, but there's a lot of subtle stuff going on, I recommend listening closely. He never seems to play the same solo twice, but they're all similar. This is a transcription of the performance from the I Am Trying to Break Your Heart DVD, because the mix is nice and loud, and the solo sounds good to me. Here's a YouTube link: https://www.youtube.com/watch?v=kAchM1rqiOg

 

 

b = half step bend

v = vibrato

~ = hold

br = bend and return                                                                                                                                                         

 

e--------3------3-------3--------3-------3----------------------------------------

B---------------3----------------3-------3---6s5-3--6s5-3----------------3--------

G--5b~~-----5b------5b-----5b-------0----3---6s5-3--6s5-3----------------3--------

D--------------------------------------0-------------------5v---5s17s10--5--------

A---------------------------------------------------------------------------------

E---------------------------------------------------------------------------------

 

First 5b~ and later rapid 5bs is kind of cut off with palm muting at the top of the bend

 

e------3-------3------3------3-----3-----3------3-----3-----3------3~~---s14-15--

B--------------3-----------------------------------------------------------------

G--5b~----5~b-----5b~~----5b----5b----5b-----5b----5b----5b----5br---------------

D--------------------------------------------------------------------------------

A--------------------------------------------------------------------------------

E--------------------------------------------------------------------------------

Share this post


Link to post
Share on other sites

Join the conversation

You can post now and register later. If you have an account, sign in now to post with your account.

Guest
Reply to this topic...

×   Pasted as rich text.   Paste as plain text instead

  Only 75 emoji are allowed.

×   Your link has been automatically embedded.   Display as a link instead

×   Your previous content has been restored.   Clear editor

×   You cannot paste images directly. Upload or insert images from URL.

Loading...
Sign in to follow this  

×
×
  • Create New...