Jump to content

a little Impossible Germany


Recommended Posts

would you care to post how your solo acoutic arangement is?

 

I improvise around these themes:

 

Impossible Germany - Wilco (standard tuning)

 

INTRO:

 

E|----------5--5--5--5--5-------------5s7--7--7--7--7-------------|

B|--5--8-------------------8---5---8------------------8-----------|

G|----------------------------------------------------------------|

D|----------------------------------------------------------------|

A|----------------------------------------------------------------|

E|----------------------------------------------------------------|

 

 

[Am7] [Cmaj7] x2

 

VERSES:

 

Am7sus4 Am7 Cmaj7 Cmaj7add4

Impossible Germany Unlikely Japan

 

G Em7 Am7sus4 Am7 Am7sus4 Am7

Wherever you go Wherever you land

 

Am7sus4 Am7 Cmaj7 Cmaj7add4

I

Link to post
Share on other sites
  • 1 month later...
  • 2 weeks later...
  • 8 months later...
  • 2 months later...
  • 1 month later...

Well this is an arrangement for a solo acoustic guitar. To play like the record you need at least 2 people. Personally, if I'm playing this by myself I play:

 

Cmaj7              Cmaj7#4

-x------------------x-
-x------------------x-
-4------------------2-
-5------------------4-
-3------------------3-
-x------------------x-

 

The two high strings can be played open too in both chords

Link to post
Share on other sites
  • 6 months later...

I would check the other threads on this too if you're looking for extra stuff, like here. I had something from awhile ago that seems pretty close to what goes on in the recording.

 

-  -  - - -    - -
-  -  - - -    - -
-  -  - - -    - -
12 10 2 0 9    5 10
12 12 3 3 10 9 7 12
-  -  - - -    - -

One for each chord, the 9 is a stepping stone to the next chord.

 

The only thing I would change now is you can play -34--- instead of -30---, but either really works.

Link to post
Share on other sites
  • 3 weeks later...

Join the conversation

You can post now and register later. If you have an account, sign in now to post with your account.

Guest
Reply to this topic...

×   Pasted as rich text.   Paste as plain text instead

  Only 75 emoji are allowed.

×   Your link has been automatically embedded.   Display as a link instead

×   Your previous content has been restored.   Clear editor

×   You cannot paste images directly. Upload or insert images from URL.

Loading...
×
×
  • Create New...