Jump to content

ISO: BBN and / or Art of Almost (acoustic)


Recommended Posts

Here's my quick take on "Art of Almost"

 

F#m (244222)

A (577655)

E (022100)

 

riff during chorus

--------------------------

--------------------------

--------------------------

--------------------------

----h--h--h--p----------

--0--2--4--5--4---0---

Link to post
Share on other sites

I think you got it. I like to slide the 4 to 5 on the riff, but YMMV, of course. Splitting hairs.

Art of Almost - Wilco
JT Solo acoustic version 2013


Standard Tuning / No Capo

F#m
No, I froze, I can't be so
     A                 E
Far away from my wasteland

F#m
I'll never know when I might ambulance
             A                   E
Or hoist the horns with my own hands

F#m    [Riff]    E   [Riff]  F#m   [Riff]    E
Almost

F#m
I heard a faint olé, true love
                 A            E
But I had other ways to hurt myself, like calling
        F#m
I could open up my heart and fall in
         A               E
I could blame it all on dust

           F#m    [Riff]    E   [Riff]  F#m   [Riff]  E
The art of almost

  F#m
I hold it up, I shake the grail
      A               E
Dissipate across the waves, tomorrow
          F#m
I'll have all the love I could ever ache
          A                 E
And I'll leave almost with you

         F#m        E     
Art of almost     Almost
         F#m      [Riff]     E
Art of almost     


[Riff]:
e--------------------------
B--------------------------
G--------------------------
D--------------------------
A----h--h--s--s------------
E--0--2--4--5--4--2--0-----

Chords:
  F#m  A   E
e--2---5---0---------------
B--2---5---0---------------
G--2---6---1---------------
D--4---7---2---------------
A--4---7---2---------------
E--2---5---0---------------
Link to post
Share on other sites

Join the conversation

You can post now and register later. If you have an account, sign in now to post with your account.

Guest
Reply to this topic...

×   Pasted as rich text.   Paste as plain text instead

  Only 75 emoji are allowed.

×   Your link has been automatically embedded.   Display as a link instead

×   Your previous content has been restored.   Clear editor

×   You cannot paste images directly. Upload or insert images from URL.

Loading...
×
×
  • Create New...