Jump to content
Sign in to follow this  
Guest gryfyrg

Gut Feeling/slap Your Mammy

Recommended Posts

Guest gryfyrg

Devo - Gut Feeling/Slap Your Mammy

 

Gut Feeling

 

Guitar 1

 

|---------------0----------------------3-----------0--------------0----------------3-----|

|-----------0-----------------------0-----------------1--------2------2---------------2--|

|--------------------------------------------------------------------------------2--------|

|--------2-----------------------0--------0---------------------------------0-----------|

|-----2------------2--0------2-----------2---3-----------0-----------------------------|

|--0----------------------3--------------------------------------------------------------|

 

Guitar 2

 

|---------------------------------------------------------------------------------------------|

|---------------------------------------------------------------------------------------------|

|---------------------------------------------------------------------------------------------|

|-2--2--2--2--2--2--2--2--5--5--5--5--5--5--5--5--10--10--10--10--10--10--10--10-|

|-2--2--2--2--2--2--2--2--5--5--5--5--5--5--5--5--10--10--10--10--10--10--10--10-|

|-0--0--0--0--0--0--0--0--3--3--3--3--3--3--3--3---8----8---8----8---8---8----8---8-|

 

|-------------------------------------------------------|

|-------------------------------------------------------|

|----------------------------7--7--7--7--7--7--7--7--|

|-7--7--7--7--7--7--7--7--7--7--7--7--7--7--7--7--|

|-7--7--7--7--7--7--7--7--5--5--5--5--5--5--5--5--|

|-5--5--5--5--5--5--5--5-----------------------------|

 

Slap Your Mammy

 

Guitar 2

 

|----------------------------------------------------------------------------|

|--7---x--7---7--7--7\--5---x--5---5--5--5---7--7--7--7--7--7--7--7--|

|--7---x--7---7--7--7\--5---x--5---5--5--5/--7--7--7--7--7--7--7--7--|

|--7---x--7---7--7--7\--5---x--5---5--5--5/--7--7--7--7--7--7--7--7--|

|--5---x--5---5--5--5\--3---x--3---3--3--3/--5--5--5--5--5--5--5--5--|

|----------------------------------------------------------------------------|

 

Guitar 1

 

|--10-------10----------10-------8-----8--------8-----|

|-------10----------10-------10-----8--------8-----8--|

|---------------------------------------------------------|

|---------------------------------------------------------|

|---------------------------------------------------------|

|---------------------------------------------------------|

 

|--10-------10-----------10-------10-------10-----------10-------|

|-------10-----------10-------10-------10-----------10-------10--|

|---------------------------------------------------------------------|

|---------------------------------------------------------------------|

|---------------------------------------------------------------------|

|---------------------------------------------------------------------|

 

______________________________________

 

Something about the way you taste

Makes me want to clear my throat

There

Edited by gryfyrg

Share this post


Link to post
Share on other sites

Join the conversation

You can post now and register later. If you have an account, sign in now to post with your account.

Guest
Reply to this topic...

×   Pasted as rich text.   Paste as plain text instead

  Only 75 emoji are allowed.

×   Your link has been automatically embedded.   Display as a link instead

×   Your previous content has been restored.   Clear editor

×   You cannot paste images directly. Upload or insert images from URL.

Loading...
Sign in to follow this  

×
×
  • Create New...