Jump to content
Sign in to follow this  
Guest gryfyrg

Laminated Cat

Recommended Posts

Guest gryfyrg

Loose Fur - Laminated Cat

 

Tuning: DADAAD

 

I'm gonna finish this as I get the time...

I've included time indexes as guidelines

 

Synths do these parts (or maybe heavily treated guitars):

Verse: D - G

Chorus: G - A - D - G - G - A - D - G

 

2:40 (Before last chorus)

 

|----------------------------------------------|

|----------------------------------------------|

|----------------------------------------------|

|----------------------------------------------|

|----------------------------------------------|

|---0---0-----0---0-----0---0-----0---0-----|

 

3:07

 

|-----------------------------------------------------------------------------------------|

|-----------------------------------------------------------------------------------------|

|-----------------------------------------------------------------------------------------|

|-----------------------------------------------------------------------------------------|

|-----------------------------------------------------------------------------------------|

|---0---0-----0---0-----0---0-----0---0-----0---0-----0---0-----0---0-----0---0-----|

 

|-----------------------------------------------------------------------------------------|

|-----------------------------------------------------------------------------------------|

|-----------------------------------------------------------------------------------------|

|-----------------------------------------------------------------------------------------|

|-----------------------------------------------------------------------------------------|

|---0---0-----0---0-----0---0-----0---0-----0---0-----0---0-----0---0-----0---0-----|

 

3:35

 

|---------------------------------------------------------------------------------------|

|---------------------------------------------------------------------------------------|

|-----------------------0---------------------------------------------------------------|

|--------------------------------------------0------------------0-------------------0--|

|---------------------------------------------------------------------------------------|

|---0---0-----0--2/4------0---0-----2/4-----0---0-----2/4-----0---0-----2/4------|

 

|---------------------------------------------------------------------------------|

|---------------------------------------------------------------------------------|

|---------------------------------------------------------------------------------|

|-------------------0------------------0------------------0------------------0--|

|---------------------------------------------------------------------------------|

|---0---0-----2/4----0---0-----2/4------0---0----2/4-----0---0-----2/4-----|

 

3:49

 

|-----------------------------------------------------------------------------------------|

|-----------------------------------------------------------------------------------------|

|-----------------------------------------------------------------------------------------|

|--------------------0-------------------0------------0--------0-------------0-------0--|

|------------------------------------------------------------------------------------------|

|---0---0-----2/4------0---0-----2/4------0---0-------2/4------0---0--------2/4------|

 

3:56

 

|---------------------------------------------------------------------------------------------|

|---------------------------------------------------------------------------------------------|

|-----------------------0--------------------0------0--------------0---------------------0--|

|---------------------------------------------------------------------------------------------|

|---------------------------------------------------------------------------------------------|

|---0---0----0--2/4------0---0----0--2/4-----0--------0--2/4------0---0----0--2/4------|

 

|---------------------------------------------------------------------------------------|

|---------------------------------------------------------------------------------------|

|----------------------0----------------------0------------------0-----------------0--|

|---------------------------------------------------------------------------------------|

|---------------------------------------------------------------------------------------|

|---0---0----0--2/4------0---0----0--2/4------0---0----2/4-----0---0----2/4------|

 

4:10

 

|---------------------------------------------------------------------------------------------|

|---------------------------------------------------------------------------------------------|

|-------------------0-----------------0------------------------------------------------------|

|---------------------------------------------------------------------------------------------|

|---------------------------0-------------0----------------0---0------------0---0-----------|

|---0---0----2/4------0---0----2/4-----0---0----2/4----0---0----2/4----0---0----2/4---|

 

|--------------------------------------------------------------------------------|

|--------------------------------------------------------------------------------|

|-------------------0------------------0----------------------------------------|

|---------------------------------------------------------0------------------0--|

|---0---0--------------0---0---------------------------------------------------|

|---0---0----2/4------0---0----2/4-----0---0----2/4------0---0----2/4-----|

 

|--------------------------------------------------------------------------------|

|--------------------------------------------------------------------------------|

|--------------------------------------------------------------------------------|

|-------------------0-----------------0------------------0------------------0--|

|--------------------------------------------------------------------------------|

|---0---0----2/4-----0---0----2/4------0---0----2/4-----0---0----2/4------|

 

|--------------------------------------------------------------------------------|

|--------------------------------------------------------------------------------|

|--------------------------------------------------------------------------------|

|-------------------0-----------------0------------------0------------------0--|

|--------------------------------------------------------------------------------|

|---0---0----2/4-----0---0----2/4------0---0----2/4-----0---0----2/4------|

 

4:41

 

|-------------------------------------------------------------------------------------------|

|-------------------------------------------------------------------------------------------|

|-----------------------------------------3---3---3---3---3-------------------------------|

|------------------0------------------0--2---2---2---2---2---------0-----------------0--|

|-----------------------------------------0---0---0---0---0-------------------------------|

|---0---0----2/4-----0---0----2/4----------------------------2/4-----0---0----2/4-----|

 

|-----------------------------------------------------------|

|-----------------------------------------------------------|

|----------------------3---3---3---3----------------------|

|-------------2---2---2---2---2---2-------------------0--|

|-------------0---0---0---0---0---0--------0-------------|

|---0---0-------------------------------0---0----2/4-----|

 

to be continued...

_____________________________________________________________

 

Springtime comes and the leaves are back on the trees again

Snipers are harder to see my friends

Weeding out the weekends

 

Summer comes and gravity undoes you

You're happy because of the lovely way the sunshine bends

Hiding from your close friends

Weeding out the weekends

 

Candy left over from Halloween

A unified theory of everything

Love left over from lovers leaving

Books, they all know they're not worth reading

It's not for the season

 

When autumn comes you sit in your chair and you stare

At the TV square

Hiding in the deep end

Weeding out the weekends

 

Winter comes and the days all start late

There's motion on the boughs where the dark shapes prowl

Feeling out the feelings

Feeling out the feeling

 

Candy left over from Halloween

A unified theory of everything

Love left over from lovers leaving

Books, they all know they're not worth reading

They're not worth reading

 

lyrics from bemydemon.org

Edited by gryfyrg

Share this post


Link to post
Share on other sites

Join the conversation

You can post now and register later. If you have an account, sign in now to post with your account.

Guest
Reply to this topic...

×   Pasted as rich text.   Paste as plain text instead

  Only 75 emoji are allowed.

×   Your link has been automatically embedded.   Display as a link instead

×   Your previous content has been restored.   Clear editor

×   You cannot paste images directly. Upload or insert images from URL.

Loading...
Sign in to follow this  

×
×
  • Create New...