Jump to content
Sign in to follow this  
groovingdan

Panthers tabs

Recommended Posts

Here's a go at Panthers:

 

it's in drop D.

 

e----------------------------

B-----------------------------

G--5---2------------------------

D--0---0-------------------------

A--0---0---------------------

D--0---0----------------------

 

do that twice, and then...

 

e-----------------

B------------------

G---0---2-----------

D---0---0-----------

A---0---0----------

D---0---0-------------

 

that's the verse.

 

The chorus, as far as I can tell, is:

Dm, C, G, C, CM7

 

and the piano riff is:

 

e-----------0-------------0---------------1---------

B--------------1-------------1---------------3------

G-------------------------------------0-----------

D----2h3----------2h3-----------3--------------

A--------------------------------------------

D-------------------------------------------

 

 

that's pretty much it.

Share this post


Link to post
Share on other sites

Join the conversation

You can post now and register later. If you have an account, sign in now to post with your account.

Guest
Reply to this topic...

×   Pasted as rich text.   Paste as plain text instead

  Only 75 emoji are allowed.

×   Your link has been automatically embedded.   Display as a link instead

×   Your previous content has been restored.   Clear editor

×   You cannot paste images directly. Upload or insert images from URL.

Loading...
Sign in to follow this  

×
×
  • Create New...